09 novembre 2004

Burn One Down Version Live

Si vous avez d'autre suggestion ou que vous le joué autrement envoyer un commentaire.
Je choisie la version Live car sur la version CD la guitare est accordé en LA alors que là un accordage standard suffit et comme je suis un gros flemmard le choix est vite fait. En plus je trouve que quand on le joue tout seul sans djembé ça passe mieux !

Intro : Reprise 3X
|---3-------3----------------------|-----3-----3--------------------|------3-----3-------------------|
|---3-------3----------------------|-----3-----3--------------------|------3-----3-------------------|
|---0-------0----------------------|-----0-----0--------------------|------0-----0-------------------|
|---0-------0----------------------|-----0-----0--------------------|------0-----0-------------------|
|-----------------0-2----3-2-0---|-----------------0-2---3-2-0-----|----------------0-2---3--2--0--|
|3----3-3-----3-----3------------|--3----3-3----3-----3-----------|---3----3-3---3-----3----------|

|-----3-----3--------------------|------3-----3------------------|
|-----3-----3--------------------|------3-----3------------------|
|-----0-----0--------------------|------0-----0------------------|
|-----0-----0--------------------|------0-----0------------------|
|-----------------0-2----3-2-0----|-----------------0-2---3--2--0|
|--3----3-3---3------3-----------|---3----3-3---3-----3---------|

Couplet 1           
|-----3-----------3---------3---------------3--------------------0-----------|
|-----3-----------3---------3---------------0--------------------1-----------|
|-----0-----------0---------0---------------0--------------------0-----------|
|-----0-----------0---------0---------------2--------------------2-----------|
|-------------------------------------------2-----------3--------3-----3-2-0-|
|-3------3----3--------3---------3-2-0----------0--------------------------|
    Let us burn one from end to end       and pass it over to me my friend
|--------3-----------3-----------3---------------3-----------------0-----------|
|--------3-----------3-----------3----------- ---0-----------------1-----------|
|--------0-----------0-----------0---------------0-----------------0-----------|
|--------0-----------0-----------0---------------2-----------------2-----------|
|-------------------------------------------------2-----------3-----3---3-2-0--|
|-3-------------3-3---------3----------3-2-0----------0--0-------------------|
   Burn  it long      we'll burn it slow     to light me up  before I go


|--------3---------3-------------3-----------3-----------3---------2----------|
|--------3---------3-------------0-----------0-----------0---------3----------|
|--------0---------0-------------0-----------0-----------0---------2----------|
|--------0---------0-------------2-----------2-----------2-----0--------------|
|-------------------------2------2------2-2--2-------2---2-------------3-2-0-|
|--3---------3-3---------------------------------------------------------------|
If you don't like my fire then don't come around cause I'm gonna burn one down

|----3------------3-------2---0--0---------|
|----3------------0-------3---1--1---------|
|----0------------0-------2---0--0---------|
|----0------------2----0------2--2---------|
|----------2------2-----------3--3---------|
|-3----------------------------------------|
      Yes I'm gonna burn one       down

Ensuite c'est idem mais avec les autres paroles qui seront publié demain !

Posté par zoom0cool à 07:00 - - Permalien [#]